  0
SECTION
  2
HEADER
  9
$ACADVER
  1
AC1009
  9
$INSBASE
 10
-1.18033110038934
 20
9.0
 30
0.0
  9
$EXTMIN
 10
-1.277491077573795
 20
9.0
 30
0.0
  9
$EXTMAX
 10
91.0
 20
61.27749107757134
 30
0.0
  9
$LIMMIN
 10
0.0
 20
0.0
  9
$LIMMAX
 10
420.0
 20
297.0
  9
$ORTHOMODE
 70
     0
  9
$REGENMODE
 70
     0
  9
$FILLMODE
 70
     1
  9
$QTEXTMODE
 70
     0
  9
$MIRRTEXT
 70
     0
  9
$DRAGMODE
 70
     2
  9
$LTSCALE
 40
1.0
  9
$OSMODE
 70
     0
  9
$ATTMODE
 70
     1
  9
$TEXTSIZE
 40
3.5
  9
$TRACEWID
 40
0.1
  9
$TEXTSTYLE
  7
STANDARD
  9
$CLAYER
  8
0
  9
$CELTYPE
  6
BYLAYER
  9
$CECOLOR
 62
   256
  9
$DIMSCALE
 40
1.0
  9
$DIMASZ
 40
2.0
  9
$DIMEXO
 40
1.0
  9
$DIMDLI
 40
8.0
  9
$DIMRND
 40
0.0
  9
$DIMDLE
 40
0.0
  9
$DIMEXE
 40
2.0
  9
$DIMTP
 40
0.1
  9
$DIMTM
 40
0.1
  9
$DIMTXT
 40
3.5
  9
$DIMCEN
 40
2.0
  9
$DIMTSZ
 40
0.0
  9
$DIMTOL
 70
     0
  9
$DIMLIM
 70
     0
  9
$DIMTIH
 70
     0
  9
$DIMTOH
 70
     0
  9
$DIMSE1
 70
     0
  9
$DIMSE2
 70
     0
  9
$DIMTAD
 70
     1
  9
$DIMZIN
 70
     0
  9
$DIMBLK
  1

  9
$DIMASO
 70
     1
  9
$DIMSHO
 70
     0
  9
$DIMPOST
  1

  9
$DIMAPOST
  1

  9
$DIMALT
 70
     0
  9
$DIMALTD
 70
     2
  9
$DIMALTF
 40
25.39999999999999
  9
$DIMLFAC
 40
1.0
  9
$DIMTOFL
 70
     0
  9
$DIMTVP
 40
0.0
  9
$DIMTIX
 70
     0
  9
$DIMSOXD
 70
     0
  9
$DIMSAH
 70
     0
  9
$DIMBLK1
  1

  9
$DIMBLK2
  1

  9
$DIMSTYLE
  2
*UNNAMED
  9
$DIMCLRD
 70
     0
  9
$DIMCLRE
 70
     0
  9
$DIMCLRT
 70
     0
  9
$DIMTFAC
 40
1.0
  9
$DIMGAP
 40
0.09
  9
$LUNITS
 70
     2
  9
$LUPREC
 70
     3
  9
$SKETCHINC
 40
0.1
  9
$FILLETRAD
 40
20.0
  9
$AUNITS
 70
     0
  9
$AUPREC
 70
     1
  9
$MENU
  1

  9
$ELEVATION
 40
0.0
  9
$PELEVATION
 40
0.0
  9
$THICKNESS
 40
0.0
  9
$LIMCHECK
 70
     0
  9
$BLIPMODE
 70
     0
  9
$CHAMFERA
 40
0.0
  9
$CHAMFERB
 40
0.0
  9
$SKPOLY
 70
     1
  9
$TDCREATE
 40
2448530.440472569
  9
$TDUPDATE
 40
2449393.430959143
  9
$TDINDWG
 40
0.0023203704
  9
$TDUSRTIMER
 40
0.0023203704
  9
$USRTIMER
 70
     1
  9
$ANGBASE
 50
0.0
  9
$ANGDIR
 70
     0
  9
$PDMODE
 70
     3
  9
$PDSIZE
 40
0.0
  9
$PLINEWID
 40
0.0
  9
$COORDS
 70
     2
  9
$SPLFRAME
 70
     0
  9
$SPLINETYPE
 70
     6
  9
$SPLINESEGS
 70
     8
  9
$ATTDIA
 70
     1
  9
$ATTREQ
 70
     1
  9
$HANDLING
 70
     0
  9
$HANDSEED
  5
239
  9
$SURFTAB1
 70
     6
  9
$SURFTAB2
 70
     6
  9
$SURFTYPE
 70
     6
  9
$SURFU
 70
     6
  9
$SURFV
 70
     6
  9
$UCSNAME
  2

  9
$UCSORG
 10
0.0
 20
0.0
 30
0.0
  9
$UCSXDIR
 10
1.0
 20
0.0
 30
0.0
  9
$UCSYDIR
 10
0.0
 20
1.0
 30
0.0
  9
$PUCSNAME
  2

  9
$PUCSORG
 10
0.0
 20
0.0
 30
0.0
  9
$PUCSXDIR
 10
1.0
 20
0.0
 30
0.0
  9
$PUCSYDIR
 10
0.0
 20
1.0
 30
0.0
  9
$USERI1
 70
     0
  9
$USERI2
 70
     3
  9
$USERI3
 70
    15
  9
$USERI4
 70
     0
  9
$USERI5
 70
     0
  9
$USERR1
 40
1.0
  9
$USERR2
 40
1.0
  9
$USERR3
 40
0.0
  9
$USERR4
 40
1.0
  9
$USERR5
 40
0.0
  9
$WORLDVIEW
 70
     1
  9
$SHADEDGE
 70
     3
  9
$SHADEDIF
 70
    70
  9
$TILEMODE
 70
     1
  9
$MAXACTVP
 70
    16
  9
$PINSBASE
 10
0.0
 20
0.0
 30
0.0
  9
$PLIMCHECK
 70
     0
  9
$PEXTMIN
 10
1.000000000000000E+20
 20
1.000000000000000E+20
 30
1.000000000000000E+20
  9
$PEXTMAX
 10
-1.000000000000000E+20
 20
-1.000000000000000E+20
 30
-1.000000000000000E+20
  9
$PLIMMIN
 10
0.0
 20
0.0
  9
$PLIMMAX
 10
12.0
 20
9.0
  9
$UNITMODE
 70
     0
  9
$VISRETAIN
 70
     0
  9
$PLINEGEN
 70
     0
  9
$PSLTSCALE
 70
     0
  9
$TREEDEPTH
 70
  3020
  9
$DWGCODEPAGE
  3
undefined
  0
ENDSEC
  0
SECTION
  2
TABLES
  0
TABLE
  2
VPORT
 70
     2
  0
VPORT
  2
*ACTIVE
 70
     0
 10
0.0
 20
0.0
 11
1.0
 21
1.0
 12
44.90983444980533
 22
45.13000265587293
 13
0.0
 23
0.0
 14
1.0
 24
1.0
 15
10.0
 25
10.0
 16
0.0
 26
0.0
 36
1.0
 17
0.0
 27
0.0
 37
0.0
 40
72.26000531174587
 41
1.275675675675675
 42
50.0
 43
0.0
 44
0.0
 50
0.0
 51
0.0
 71
     0
 72
   100
 73
     1
 74
     1
 75
     0
 76
     0
 77
     0
 78
     0
  0
ENDTAB
  0
TABLE
  2
LTYPE
 70
     1
  0
LTYPE
  2
AUSGEZOGEN
 70
    64
  3
Solid line
 72
    65
 73
     0
 40
0.0
  0
ENDTAB
  0
TABLE
  2
LAYER
 70
     3
  0
LAYER
  2
0
 70
     0
 62
     7
  6
AUSGEZOGEN
  0
LAYER
  2
ITEM_50
 70
    64
 62
     7
  6
AUSGEZOGEN
  0
LAYER
  2
ITEM_HILFE
 70
    64
 62
     3
  6
AUSGEZOGEN
  0
ENDTAB
  0
TABLE
  2
STYLE
 70
     1
  0
STYLE
  2
STANDARD
 70
     0
 40
0.0
 41
1.0
 50
0.0
 71
     0
 42
3.5
  3
iso
  4

  0
ENDTAB
  0
TABLE
  2
VIEW
 70
     0
  0
ENDTAB
  0
TABLE
  2
UCS
 70
     0
  0
ENDTAB
  0
TABLE
  2
APPID
 70
     1
  0
APPID
  2
ACAD
 70
    64
  0
ENDTAB
  0
TABLE
  2
DIMSTYLE
 70
     0
  0
ENDTAB
  0
ENDSEC
  0
SECTION
  2
BLOCKS
  0
ENDSEC
  0
SECTION
  2
ENTITIES
  0
LINE
  8
ITEM_50
 10
80.0
 20
9.0
 30
0.0
 11
80.0
 21
10.0
 31
0.0
  0
LINE
  8
ITEM_50
 10
80.0
 20
10.0
 30
0.0
 11
0.0
 21
10.0
 31
0.0
  0
LINE
  8
ITEM_50
 10
0.0
 20
10.0
 30
0.0
 11
0.0
 21
9.0
 31
0.0
  0
LINE
  8
ITEM_50
 10
16.0
 20
9.0
 30
0.0
 11
16.0
 21
10.0
 31
0.0
  0
LINE
  8
ITEM_50
 10
24.0
 20
10.0
 30
0.0
 11
24.0
 21
9.0
 31
0.0
  0
LINE
  8
ITEM_50
 10
64.0
 20
9.0
 30
0.0
 11
64.0
 21
10.0
 31
0.0
  0
LINE
  8
ITEM_50
 10
56.0
 20
10.0
 30
0.0
 11
56.0
 21
9.0
 31
0.0
  0
LINE
  8
ITEM_50
 10
90.0
 20
20.0
 30
0.0
 11
91.0
 21
20.0
 31
0.0
  0
LINE
  8
ITEM_50
 10
91.0
 20
60.0
 30
0.0
 11
90.0
 21
60.0
 31
0.0
  0
LINE
  8
ITEM_50
 10
90.0
 20
60.0
 30
0.0
 11
90.0
 21
20.0
 31
0.0
  0
LINE
  8
ITEM_50
 10
90.0
 20
36.0
 30
0.0
 11
91.0
 21
36.0
 31
0.0
  0
LINE
  8
ITEM_50
 10
91.0
 20
44.0
 30
0.0
 11
90.0
 21
44.0
 31
0.0
  0
CIRCLE
  8
ITEM_50
 10
20.00000000000002
 20
40.0
 30
0.0
 40
3.399999999999999
  0
CIRCLE
  8
ITEM_50
 10
60.00000000000008
 20
40.0
 30
0.0
 40
3.399999999999999
  0
POINT
  8
ITEM_HILFE
 10
0.0
 20
60.0
 30
0.0
  0
POINT
  8
ITEM_HILFE
 10
0.0
 20
20.0
 30
0.0
  0
POINT
  8
ITEM_HILFE
 10
39.9999999999969
 20
39.99999999999019
 30
0.0
  0
POINT
  8
ITEM_HILFE
 10
80.00000000000011
 20
60.0
 30
0.0
  0
POINT
  8
ITEM_HILFE
 10
80.00000000000011
 20
20.0
 30
0.0
  0
POINT
  8
ITEM_HILFE
 10
20.00000000000002
 20
59.99999999999019
 30
0.0
  0
POINT
  8
ITEM_HILFE
 10
60.00000000000008
 20
59.99999999999019
 30
0.0
  0
POINT
  8
ITEM_HILFE
 10
20.00000000000002
 20
55.49999999999019
 30
0.0
  0
POINT
  8
ITEM_HILFE
 10
60.00000000000008
 20
55.49999999999019
 30
0.0
  0
POINT
  8
ITEM_HILFE
 10
20.00000000000002
 20
20.0000000000098
 30
0.0
  0
POINT
  8
ITEM_HILFE
 10
60.00000000000008
 20
20.0000000000098
 30
0.0
  0
POINT
  8
ITEM_HILFE
 10
15.29000739528305
 20
24.45702440444321
 30
0.0
  0
POINT
  8
ITEM_HILFE
 10
55.29000739528311
 20
24.45702440444321
 30
0.0
  0
POINT
  8
ITEM_HILFE
 10
20.00000000000002
 20
24.5000000000098
 30
0.0
  0
POINT
  8
ITEM_HILFE
 10
60.00000000000008
 20
24.5000000000098
 30
0.0
  0
POINT
  8
ITEM_HILFE
 10
-0.0000000000024443
 20
40.00000000001222
 30
0.0
  0
POINT
  8
ITEM_HILFE
 10
4.45702440443361
 20
44.70999260470784
 30
0.0
  0
POINT
  8
ITEM_HILFE
 10
4.499999999999886
 20
40.00000000000028
 30
0.0
  0
POINT
  8
ITEM_HILFE
 10
80.00000000000255
 20
40.00000000003669
 30
0.0
  0
POINT
  8
ITEM_HILFE
 10
75.50389288304288
 20
44.91184892769325
 30
0.0
  0
POINT
  8
ITEM_HILFE
 10
75.50000000000022
 20
40.00000000000105
 30
0.0
  0
ARC
  8
ITEM_50
 10
72.30000000000012
 20
57.69999999999098
 30
0.0
 40
0.5
 50
90.00000000008793
 51
180.0000000000008
  0
LINE
  8
ITEM_50
 10
72.29999999999935
 20
58.19999999999097
 30
0.0
 11
75.99999999999673
 21
58.19999999999657
 31
0.0
  0
ARC
  8
ITEM_50
 10
76.00000000000008
 20
55.99999999999658
 30
0.0
 40
2.199999999999988
 50
0.0
 51
90.00000000008733
  0
LINE
  8
ITEM_50
 10
78.20000000000007
 20
55.99999999999658
 30
0.0
 11
78.2000000000001
 21
52.2999999999902
 31
0.0
  0
ARC
  8
ITEM_50
 10
77.7000000000001
 20
52.2999999999902
 30
0.0
 40
0.5
 50
270.0
 51
0.0
  0
LINE
  8
ITEM_50
 10
77.7000000000001
 20
51.7999999999902
 30
0.0
 11
72.30000000000015
 21
51.7999999999902
 31
0.0
  0
ARC
  8
ITEM_50
 10
72.30000000000015
 20
52.2999999999902
 30
0.0
 40
0.5
 50
180.0
 51
270.0
  0
LINE
  8
ITEM_50
 10
71.80000000000015
 20
52.2999999999902
 30
0.0
 11
71.80000000000012
 21
57.69999999999097
 31
0.0
  0
LINE
  8
ITEM_50
 10
25.00000000000002
 20
55.49999999999019
 30
0.0
 11
26.50000000000005
 21
55.49999999999019
 31
0.0
  0
ARC
  8
ITEM_50
 10
26.50000000000005
 20
55.99999999999019
 30
0.0
 40
0.5
 50
270.0
 51
0.0
  0
LINE
  8
ITEM_50
 10
27.00000000000005
 20
55.99999999999019
 30
0.0
 11
27.00000000000002
 21
57.4999999999913
 31
0.0
  0
ARC
  8
ITEM_50
 10
27.49999999999947
 20
57.49999999999074
 30
0.0
 40
0.4999999999994458
 50
89.99999999993649
 51
179.9999999999364
  0
ARC
  8
ITEM_50
 10
27.50000000000002
 20
55.49999999999018
 30
0.0
 40
2.500000000000007
 50
359.9999999999994
 51
89.99999999999992
  0
LINE
  8
ITEM_50
 10
30.00000000000002
 20
55.49999999999016
 30
0.0
 11
30.00000000000002
 21
54.19238815542513
 31
0.0
  0
ARC
  8
ITEM_50
 10
25.00000000000002
 20
54.19238815542513
 30
0.0
 40
5.0
 50
315.0
 51
0.0
  0
LINE
  8
ITEM_50
 10
28.53553390593276
 20
50.65685424949239
 30
0.0
 11
27.09314575049785
 21
49.21446609405745
 31
0.0
  0
ARC
  8
ITEM_50
 10
23.55761184456511
 20
52.74999999999019
 30
0.0
 40
5.0
 50
270.0
 51
315.0
  0
LINE
  8
ITEM_50
 10
23.55761184456511
 20
47.74999999999019
 30
0.0
 11
20.00000000000002
 21
47.74999999999019
 31
0.0
  0
LINE
  8
ITEM_50
 10
20.00000000000002
 20
47.74999999999019
 30
0.0
 11
16.44238815543494
 21
47.74999999999019
 31
0.0
  0
ARC
  8
ITEM_50
 10
16.44238815543494
 20
52.74999999999019
 30
0.0
 40
5.0
 50
225.0
 51
270.0
  0
LINE
  8
ITEM_50
 10
12.9068542495022
 20
49.21446609405745
 30
0.0
 11
11.46446609406729
 21
50.65685424949239
 31
0.0
  0
ARC
  8
ITEM_50
 10
15.00000000000002
 20
54.19238815542513
 30
0.0
 40
4.999999999999999
 50
180.0
 51
225.0
  0
LINE
  8
ITEM_50
 10
10.00000000000002
 20
54.19238815542513
 30
0.0
 11
10.00000000000002
 21
55.49999999999016
 31
0.0
  0
ARC
  8
ITEM_50
 10
12.50000000000058
 20
55.49999999999074
 30
0.0
 40
2.500000000000557
 50
90.00000000001278
 51
180.0000000000131
  0
ARC
  8
ITEM_50
 10
12.50000000000002
 20
57.4999999999913
 30
0.0
 40
0.5
 50
0.0
 51
90.0
  0
LINE
  8
ITEM_50
 10
13.00000000000002
 20
57.4999999999913
 30
0.0
 11
13.0
 21
55.99999999999019
 31
0.0
  0
ARC
  8
ITEM_50
 10
13.5
 20
55.99999999999019
 30
0.0
 40
0.5
 50
180.0
 51
270.0
  0
LINE
  8
ITEM_50
 10
13.5
 20
55.49999999999019
 30
0.0
 11
15.00000000000002
 21
55.49999999999019
 31
0.0
  0
ARC
  8
ITEM_50
 10
15.00000000000002
 20
56.49999999999019
 30
0.0
 40
1.0
 50
270.0
 51
0.0
  0
LINE
  8
ITEM_50
 10
16.00000000000002
 20
56.49999999999019
 30
0.0
 11
16.00000000000002
 21
58.49999999999019
 31
0.0
  0
ARC
  8
ITEM_50
 10
14.50000000000002
 20
58.49999999999019
 30
0.0
 40
1.5
 50
0.0
 51
90.0
  0
LINE
  8
ITEM_50
 10
14.50000000000002
 20
59.99999999999019
 30
0.0
 11
4.000000000007332
 21
59.99999999999019
 31
0.0
  0
ARC
  8
ITEM_50
 10
4.000000000007332
 20
55.99999999999019
 30
0.0
 40
4.0
 50
90.0
 51
179.9999999999649
  0
LINE
  8
ITEM_50
 10
0.0000000000073328
 20
55.99999999999263
 30
0.0
 11
0.0000000000009095
 21
45.4999999999911
 31
0.0
  0
ARC
  8
ITEM_50
 10
1.500000000000905
 20
45.49999999999018
 30
0.0
 40
1.499999999999995
 50
179.9999999999649
 51
270.0000000000001
  0
LINE
  8
ITEM_50
 10
1.500000000000909
 20
43.99999999999019
 30
0.0
 11
3.499999999999971
 21
43.99999999999019
 31
0.0
  0
ARC
  8
ITEM_50
 10
3.499999999999971
 20
44.99999999999019
 30
0.0
 40
1.0
 50
270.0
 51
0.0
  0
LINE
  8
ITEM_50
 10
4.499999999999971
 20
44.99999999999019
 30
0.0
 11
4.5
 21
46.49999999999019
 31
0.0
  0
ARC
  8
ITEM_50
 10
4.000000000000003
 20
46.49999999999019
 30
0.0
 40
0.4999999999999964
 50
0.0
 51
90.00000000000041
  0
LINE
  8
ITEM_50
 10
4.0
 20
46.99999999999019
 30
0.0
 11
2.499999999999971
 21
46.99999999999019
 31
0.0
  0
ARC
  8
ITEM_50
 10
2.499999999999985
 20
47.4999999999902
 30
0.0
 40
0.5000000000000142
 50
180.0000000000016
 51
269.9999999999983
  0
ARC
  8
ITEM_50
 10
4.499999999999971
 20
47.49999999999019
 30
0.0
 40
2.5
 50
90.0
 51
180.0
  0
LINE
  8
ITEM_50
 10
4.499999999999971
 20
49.99999999999019
 30
0.0
 11
5.807611844584698
 21
49.99999999999019
 31
0.0
  0
ARC
  8
ITEM_50
 10
5.807611844584706
 20
44.99999999999021
 30
0.0
 40
4.999999999999978
 50
45.00000000000034
 51
90.00000000000008
  0
LINE
  8
ITEM_50
 10
9.343145750517408
 20
48.53553390592296
 30
0.0
 11
10.78553390593276
 21
47.0931457505076
 31
0.0
  0
ARC
  8
ITEM_50
 10
7.250000000000047
 20
43.55761184457487
 30
0.0
 40
4.999999999999982
 50
359.9999999999998
 51
45.00000000000009
  0
LINE
  8
ITEM_50
 10
12.25000000000002
 20
43.55761184457486
 30
0.0
 11
12.25000000000002
 21
40.0000000000098
 31
0.0
  0
LINE
  8
ITEM_50
 10
12.25000000000002
 20
40.0000000000098
 30
0.0
 11
12.25000000000002
 21
36.44238815542513
 31
0.0
  0
ARC
  8
ITEM_50
 10
7.250000000000044
 20
36.44238815542512
 30
0.0
 40
4.999999999999984
 50
314.9999999999999
 51
0.0000000000000814
  0
LINE
  8
ITEM_50
 10
10.78553390593276
 20
32.90685424949239
 30
0.0
 11
9.343145750517408
 21
31.46446609407703
 31
0.0
  0
ARC
  8
ITEM_50
 10
5.807611844584703
 20
35.00000000000979
 30
0.0
 40
4.999999999999986
 50
269.9999999999999
 51
314.9999999999996
  0
LINE
  8
ITEM_50
 10
5.807611844584698
 20
30.0000000000098
 30
0.0
 11
4.499999999999971
 21
30.0000000000098
 31
0.0
  0
ARC
  8
ITEM_50
 10
4.499999999999984
 20
32.50000000000981
 30
0.0
 40
2.500000000000014
 50
179.9999999999996
 51
269.9999999999997
  0
ARC
  8
ITEM_50
 10
2.499999999999971
 20
32.5000000000098
 30
0.0
 40
0.5
 50
90.0
 51
179.9999999999967
  0
LINE
  8
ITEM_50
 10
2.499999999999971
 20
33.0000000000098
 30
0.0
 11
4.0
 21
33.0000000000098
 31
0.0
  0
ARC
  8
ITEM_50
 10
4.000000000000003
 20
33.5000000000098
 30
0.0
 40
0.5
 50
269.9999999999996
 51
0.0
  0
LINE
  8
ITEM_50
 10
4.5
 20
33.5000000000098
 30
0.0
 11
4.499999999999971
 21
35.0000000000098
 31
0.0
  0
ARC
  8
ITEM_50
 10
3.499999999999971
 20
35.0000000000098
 30
0.0
 40
1.0
 50
0.0
 51
90.0
  0
LINE
  8
ITEM_50
 10
3.499999999999971
 20
36.0000000000098
 30
0.0
 11
1.500000000000909
 21
36.0000000000098
 31
0.0
  0
ARC
  8
ITEM_50
 10
1.500000000000905
 20
34.50000000000981
 30
0.0
 40
1.499999999999992
 50
89.99999999999982
 51
180.000000000035
  0
LINE
  8
ITEM_50
 10
0.0000000000009095
 20
34.50000000000889
 30
0.0
 11
0.0000000000073328
 21
24.00000000000736
 31
0.0
  0
ARC
  8
ITEM_50
 10
4.000000000007332
 20
24.0000000000098
 30
0.0
 40
4.0
 50
180.000000000035
 51
270.0
  0
LINE
  8
ITEM_50
 10
4.000000000007332
 20
20.0000000000098
 30
0.0
 11
14.50000000000002
 21
20.0000000000098
 31
0.0
  0
ARC
  8
ITEM_50
 10
14.50000000000002
 20
21.5000000000098
 30
0.0
 40
1.5
 50
270.0
 51
0.0
  0
LINE
  8
ITEM_50
 10
16.00000000000002
 20
21.5000000000098
 30
0.0
 11
16.00000000000002
 21
23.5000000000098
 31
0.0
  0
ARC
  8
ITEM_50
 10
15.00000000000002
 20
23.5000000000098
 30
0.0
 40
1.0
 50
0.0
 51
90.0
  0
LINE
  8
ITEM_50
 10
15.00000000000002
 20
24.5000000000098
 30
0.0
 11
13.5
 21
24.5000000000098
 31
0.0
  0
ARC
  8
ITEM_50
 10
13.5
 20
24.0000000000098
 30
0.0
 40
0.5
 50
90.0
 51
180.0
  0
LINE
  8
ITEM_50
 10
13.0
 20
24.0000000000098
 30
0.0
 11
13.00000000000002
 21
22.50000000000869
 31
0.0
  0
ARC
  8
ITEM_50
 10
12.50000000000058
 20
22.50000000000925
 30
0.0
 40
0.4999999999994458
 50
269.9999999999365
 51
359.9999999999365
  0
ARC
  8
ITEM_50
 10
12.50000000000003
 20
24.5000000000098
 30
0.0
 40
2.500000000000003
 50
179.9999999999994
 51
269.9999999999998
  0
LINE
  8
ITEM_50
 10
10.00000000000002
 20
24.50000000000983
 30
0.0
 11
10.00000000000002
 21
25.80761184457486
 31
0.0
  0
ARC
  8
ITEM_50
 10
15.00000000000002
 20
25.80761184457486
 30
0.0
 40
5.0
 50
135.0
 51
180.0
  0
LINE
  8
ITEM_50
 10
11.46446609406729
 20
29.3431457505076
 30
0.0
 11
12.9068542495022
 21
30.78553390594254
 31
0.0
  0
ARC
  8
ITEM_50
 10
16.44238815543494
 20
27.2500000000098
 30
0.0
 40
5.0
 50
90.0
 51
135.0
  0
LINE
  8
ITEM_50
 10
16.44238815543494
 20
32.2500000000098
 30
0.0
 11
20.00000000000002
 21
32.2500000000098
 31
0.0
  0
LINE
  8
ITEM_50
 10
20.00000000000002
 20
32.2500000000098
 30
0.0
 11
23.55761184456511
 21
32.2500000000098
 31
0.0
  0
ARC
  8
ITEM_50
 10
23.55761184456511
 20
27.2500000000098
 30
0.0
 40
5.0
 50
45.0
 51
90.0
  0
LINE
  8
ITEM_50
 10
27.09314575049785
 20
30.78553390594254
 30
0.0
 11
28.53553390593276
 21
29.3431457505076
 31
0.0
  0
ARC
  8
ITEM_50
 10
25.00000000000002
 20
25.80761184457486
 30
0.0
 40
5.0
 50
0.0
 51
45.0
  0
LINE
  8
ITEM_50
 10
30.00000000000002
 20
25.80761184457486
 30
0.0
 11
30.00000000000002
 21
24.50000000000983
 31
0.0
  0
ARC
  8
ITEM_50
 10
27.49999999999947
 20
24.50000000000925
 30
0.0
 40
2.500000000000557
 50
270.0000000000127
 51
0.0000000000132718
  0
ARC
  8
ITEM_50
 10
27.50000000000002
 20
22.50000000000869
 30
0.0
 40
0.5
 50
180.0
 51
270.0
  0
LINE
  8
ITEM_50
 10
27.00000000000002
 20
22.50000000000869
 30
0.0
 11
27.00000000000005
 21
24.0000000000098
 31
0.0
  0
ARC
  8
ITEM_50
 10
26.50000000000005
 20
24.0000000000098
 30
0.0
 40
0.5
 50
0.0
 51
90.0
  0
LINE
  8
ITEM_50
 10
26.50000000000005
 20
24.5000000000098
 30
0.0
 11
25.00000000000002
 21
24.5000000000098
 31
0.0
  0
ARC
  8
ITEM_50
 10
25.00000000000002
 20
23.5000000000098
 30
0.0
 40
1.0
 50
90.0
 51
180.0
  0
LINE
  8
ITEM_50
 10
24.00000000000002
 20
23.5000000000098
 30
0.0
 11
24.00000000000002
 21
21.5000000000098
 31
0.0
  0
ARC
  8
ITEM_50
 10
25.50000000000002
 20
21.5000000000098
 30
0.0
 40
1.5
 50
180.0
 51
270.0
  0
LINE
  8
ITEM_50
 10
25.50000000000002
 20
20.0000000000098
 30
0.0
 11
40.00000000000005
 21
20.0000000000098
 31
0.0
  0
LINE
  8
ITEM_50
 10
40.00000000000005
 20
20.0000000000098
 30
0.0
 11
54.50000000000008
 21
20.0000000000098
 31
0.0
  0
ARC
  8
ITEM_50
 10
54.50000000000008
 20
21.5000000000098
 30
0.0
 40
1.5
 50
270.0
 51
0.0
  0
LINE
  8
ITEM_50
 10
56.00000000000008
 20
21.5000000000098
 30
0.0
 11
56.00000000000008
 21
23.5000000000098
 31
0.0
  0
ARC
  8
ITEM_50
 10
55.00000000000008
 20
23.5000000000098
 30
0.0
 40
1.0
 50
0.0
 51
90.0
  0
LINE
  8
ITEM_50
 10
55.00000000000008
 20
24.5000000000098
 30
0.0
 11
53.50000000000005
 21
24.5000000000098
 31
0.0
  0
ARC
  8
ITEM_50
 10
53.50000000000005
 20
24.0000000000098
 30
0.0
 40
0.5
 50
90.0
 51
180.0
  0
LINE
  8
ITEM_50
 10
53.00000000000005
 20
24.0000000000098
 30
0.0
 11
53.00000000000008
 21
22.50000000000869
 31
0.0
  0
ARC
  8
ITEM_50
 10
52.50000000000008
 20
22.50000000000869
 30
0.0
 40
0.5
 50
270.0
 51
0.0
  0
ARC
  8
ITEM_50
 10
52.50000000000064
 20
24.50000000000925
 30
0.0
 40
2.500000000000557
 50
179.9999999999867
 51
269.999999999987
  0
LINE
  8
ITEM_50
 10
50.00000000000008
 20
24.50000000000983
 30
0.0
 11
50.00000000000008
 21
25.80761184457486
 31
0.0
  0
ARC
  8
ITEM_50
 10
55.00000000000008
 20
25.80761184457486
 30
0.0
 40
5.0
 50
135.0
 51
180.0
  0
LINE
  8
ITEM_50
 10
51.46446609406734
 20
29.3431457505076
 30
0.0
 11
52.90685424950225
 21
30.78553390594254
 31
0.0
  0
ARC
  8
ITEM_50
 10
56.44238815543499
 20
27.2500000000098
 30
0.0
 40
5.0
 50
90.0
 51
135.0
  0
LINE
  8
ITEM_50
 10
56.44238815543499
 20
32.2500000000098
 30
0.0
 11
60.00000000000008
 21
32.2500000000098
 31
0.0
  0
LINE
  8
ITEM_50
 10
60.00000000000008
 20
32.2500000000098
 30
0.0
 11
63.55761184456517
 21
32.2500000000098
 31
0.0
  0
ARC
  8
ITEM_50
 10
63.55761184456517
 20
27.2500000000098
 30
0.0
 40
5.0
 50
45.0
 51
90.0
  0
LINE
  8
ITEM_50
 10
67.09314575049791
 20
30.78553390594254
 30
0.0
 11
68.53553390593282
 21
29.3431457505076
 31
0.0
  0
ARC
  8
ITEM_50
 10
65.00000000000008
 20
25.80761184457486
 30
0.0
 40
5.0
 50
0.0
 51
45.0
  0
LINE
  8
ITEM_50
 10
70.00000000000008
 20
25.80761184457486
 30
0.0
 11
70.00000000000008
 21
24.50000000000983
 31
0.0
  0
ARC
  8
ITEM_50
 10
67.50000000000008
 20
24.50000000000981
 30
0.0
 40
2.5
 50
270.0
 51
0.0000000000004885
  0
ARC
  8
ITEM_50
 10
67.49999999999953
 20
22.50000000000925
 30
0.0
 40
0.4999999999994458
 50
180.0000000000635
 51
270.0000000000634
  0
LINE
  8
ITEM_50
 10
67.00000000000008
 20
22.50000000000869
 30
0.0
 11
67.00000000000011
 21
24.0000000000098
 31
0.0
  0
ARC
  8
ITEM_50
 10
66.50000000000011
 20
24.0000000000098
 30
0.0
 40
0.5
 50
0.0
 51
90.0
  0
LINE
  8
ITEM_50
 10
66.50000000000011
 20
24.5000000000098
 30
0.0
 11
65.00000000000008
 21
24.5000000000098
 31
0.0
  0
ARC
  8
ITEM_50
 10
65.00000000000008
 20
23.5000000000098
 30
0.0
 40
1.0
 50
90.0
 51
180.0
  0
LINE
  8
ITEM_50
 10
64.00000000000008
 20
23.5000000000098
 30
0.0
 11
64.00000000000008
 21
21.5000000000098
 31
0.0
  0
ARC
  8
ITEM_50
 10
65.50000000000008
 20
21.5000000000098
 30
0.0
 40
1.5
 50
180.0
 51
270.0
  0
LINE
  8
ITEM_50
 10
65.50000000000008
 20
20.0000000000098
 30
0.0
 11
75.99999999999278
 21
20.0000000000098
 31
0.0
  0
ARC
  8
ITEM_50
 10
75.99999999999278
 20
24.0000000000098
 30
0.0
 40
4.0
 50
270.0
 51
359.9999999999649
  0
LINE
  8
ITEM_50
 10
79.99999999999278
 20
24.00000000000736
 30
0.0
 11
79.9999999999992
 21
34.50000000000889
 31
0.0
  0
ARC
  8
ITEM_50
 10
78.4999999999992
 20
34.5000000000098
 30
0.0
 40
1.5
 50
359.9999999999652
 51
90.0
  0
LINE
  8
ITEM_50
 10
78.4999999999992
 20
36.0000000000098
 30
0.0
 11
76.50000000000014
 21
36.0000000000098
 31
0.0
  0
ARC
  8
ITEM_50
 10
76.50000000000014
 20
35.0000000000098
 30
0.0
 40
1.0
 50
90.0
 51
180.0
  0
LINE
  8
ITEM_50
 10
75.50000000000014
 20
35.0000000000098
 30
0.0
 11
75.50000000000011
 21
33.5000000000098
 31
0.0
  0
ARC
  8
ITEM_50
 10
76.00000000000011
 20
33.5000000000098
 30
0.0
 40
0.5
 50
180.0
 51
270.0
  0
LINE
  8
ITEM_50
 10
76.00000000000011
 20
33.0000000000098
 30
0.0
 11
77.50000000000014
 21
33.0000000000098
 31
0.0
  0
ARC
  8
ITEM_50
 10
77.50000000000014
 20
32.5000000000098
 30
0.0
 40
0.5
 50
0.0000000000032569
 51
90.0
  0
LINE
  8
ITEM_50
 10
78.00000000000014
 20
32.50000000000983
 30
0.0
 11
78.00000000000014
 21
32.5000000000098
 31
0.0
  0
ARC
  8
ITEM_50
 10
75.50000000000014
 20
32.5000000000098
 30
0.0
 40
2.5
 50
270.0
 51
0.0
  0
LINE
  8
ITEM_50
 10
75.50000000000014
 20
30.0000000000098
 30
0.0
 11
74.19238815541541
 21
30.0000000000098
 31
0.0
  0
ARC
  8
ITEM_50
 10
74.19238815541541
 20
35.00000000000979
 30
0.0
 40
4.999999999999985
 50
225.0000000000003
 51
270.0
  0
LINE
  8
ITEM_50
 10
70.6568542494827
 20
31.46446609407703
 30
0.0
 11
69.21446609406734
 21
32.90685424949239
 31
0.0
  0
ARC
  8
ITEM_50
 10
72.75000000000007
 20
36.44238815542512
 30
0.0
 40
4.999999999999984
 50
179.9999999999999
 51
225.0
  0
LINE
  8
ITEM_50
 10
67.75000000000008
 20
36.44238815542513
 30
0.0
 11
67.75000000000008
 21
40.0000000000098
 31
0.0
  0
LINE
  8
ITEM_50
 10
67.75000000000008
 20
40.0000000000098
 30
0.0
 11
67.75000000000008
 21
43.55761184457486
 31
0.0
  0
ARC
  8
ITEM_50
 10
72.75000000000007
 20
43.55761184457487
 30
0.0
 40
4.999999999999985
 50
134.9999999999999
 51
180.0
  0
LINE
  8
ITEM_50
 10
69.21446609406734
 20
47.0931457505076
 30
0.0
 11
70.6568542494827
 21
48.53553390592296
 31
0.0
  0
ARC
  8
ITEM_50
 10
74.1923881554154
 20
44.99999999999021
 30
0.0
 40
4.999999999999975
 50
89.99999999999982
 51
134.9999999999996
  0
LINE
  8
ITEM_50
 10
74.19238815541541
 20
49.99999999999019
 30
0.0
 11
75.50000000000014
 21
49.99999999999019
 31
0.0
  0
ARC
  8
ITEM_50
 10
75.50000000000014
 20
47.49999999999019
 30
0.0
 40
2.5
 50
0.0
 51
90.0
  0
LINE
  8
ITEM_50
 10
78.00000000000014
 20
47.49999999999019
 30
0.0
 11
78.00000000000014
 21
47.49999999999019
 31
0.0
  0
ARC
  8
ITEM_50
 10
77.50000000000012
 20
47.4999999999902
 30
0.0
 40
0.5000000000000142
 50
270.0000000000016
 51
359.9999999999983
  0
LINE
  8
ITEM_50
 10
77.50000000000014
 20
46.99999999999019
 30
0.0
 11
76.00000000000011
 21
46.99999999999019
 31
0.0
  0
ARC
  8
ITEM_50
 10
76.00000000000011
 20
46.49999999999019
 30
0.0
 40
0.5
 50
90.0
 51
180.0
  0
LINE
  8
ITEM_50
 10
75.50000000000011
 20
46.49999999999019
 30
0.0
 11
75.50000000000014
 21
44.99999999999019
 31
0.0
  0
ARC
  8
ITEM_50
 10
76.50000000000014
 20
44.99999999999019
 30
0.0
 40
1.0
 50
180.0
 51
270.0
  0
LINE
  8
ITEM_50
 10
76.50000000000014
 20
43.99999999999019
 30
0.0
 11
78.4999999999992
 21
43.99999999999019
 31
0.0
  0
ARC
  8
ITEM_50
 10
78.4999999999992
 20
45.49999999999019
 30
0.0
 40
1.5
 50
270.0
 51
0.0000000000347401
  0
LINE
  8
ITEM_50
 10
79.9999999999992
 20
45.4999999999911
 30
0.0
 11
79.99999999999278
 21
55.99999999999263
 31
0.0
  0
ARC
  8
ITEM_50
 10
75.99999999999278
 20
55.99999999999019
 30
0.0
 40
4.0
 50
0.0000000000350115
 51
90.0
  0
LINE
  8
ITEM_50
 10
75.99999999999278
 20
59.99999999999019
 30
0.0
 11
65.50000000000008
 21
59.99999999999019
 31
0.0
  0
ARC
  8
ITEM_50
 10
65.50000000000008
 20
58.49999999999019
 30
0.0
 40
1.5
 50
90.0
 51
180.0
  0
LINE
  8
ITEM_50
 10
64.00000000000008
 20
58.49999999999019
 30
0.0
 11
64.00000000000008
 21
56.49999999999019
 31
0.0
  0
ARC
  8
ITEM_50
 10
65.00000000000008
 20
56.49999999999019
 30
0.0
 40
1.0
 50
180.0
 51
270.0
  0
LINE
  8
ITEM_50
 10
65.00000000000008
 20
55.49999999999019
 30
0.0
 11
66.50000000000011
 21
55.49999999999019
 31
0.0
  0
ARC
  8
ITEM_50
 10
66.50000000000011
 20
55.99999999999019
 30
0.0
 40
0.5
 50
270.0
 51
0.0
  0
LINE
  8
ITEM_50
 10
67.00000000000011
 20
55.99999999999019
 30
0.0
 11
67.00000000000008
 21
57.4999999999913
 31
0.0
  0
ARC
  8
ITEM_50
 10
67.50000000000008
 20
57.4999999999913
 30
0.0
 40
0.5
 50
90.0
 51
180.0
  0
ARC
  8
ITEM_50
 10
67.49999999999953
 20
55.49999999999074
 30
0.0
 40
2.500000000000561
 50
359.9999999999868
 51
89.9999999999873
  0
LINE
  8
ITEM_50
 10
70.00000000000008
 20
55.49999999999016
 30
0.0
 11
70.00000000000008
 21
54.19238815542513
 31
0.0
  0
ARC
  8
ITEM_50
 10
65.00000000000008
 20
54.19238815542513
 30
0.0
 40
5.0
 50
315.0
 51
0.0
  0
LINE
  8
ITEM_50
 10
68.53553390593282
 20
50.65685424949239
 30
0.0
 11
67.09314575049791
 21
49.21446609405745
 31
0.0
  0
ARC
  8
ITEM_50
 10
63.55761184456517
 20
52.74999999999019
 30
0.0
 40
5.0
 50
270.0
 51
315.0
  0
LINE
  8
ITEM_50
 10
63.55761184456517
 20
47.74999999999019
 30
0.0
 11
60.00000000000008
 21
47.74999999999019
 31
0.0
  0
LINE
  8
ITEM_50
 10
60.00000000000008
 20
47.74999999999019
 30
0.0
 11
56.44238815543499
 21
47.74999999999019
 31
0.0
  0
ARC
  8
ITEM_50
 10
56.44238815543499
 20
52.74999999999019
 30
0.0
 40
5.0
 50
225.0
 51
270.0
  0
LINE
  8
ITEM_50
 10
52.90685424950225
 20
49.21446609405745
 30
0.0
 11
51.46446609406734
 21
50.65685424949239
 31
0.0
  0
ARC
  8
ITEM_50
 10
55.00000000000008
 20
54.19238815542513
 30
0.0
 40
5.0
 50
180.0
 51
225.0
  0
LINE
  8
ITEM_50
 10
50.00000000000008
 20
54.19238815542513
 30
0.0
 11
50.00000000000008
 21
55.49999999999016
 31
0.0
  0
ARC
  8
ITEM_50
 10
52.50000000000009
 20
55.49999999999018
 30
0.0
 40
2.500000000000007
 50
90.00000000000017
 51
180.0000000000004
  0
ARC
  8
ITEM_50
 10
52.50000000000063
 20
57.49999999999074
 30
0.0
 40
0.4999999999994458
 50
0.0000000000635093
 51
90.0000000000635
  0
LINE
  8
ITEM_50
 10
53.00000000000008
 20
57.4999999999913
 30
0.0
 11
53.00000000000005
 21
55.99999999999019
 31
0.0
  0
ARC
  8
ITEM_50
 10
53.50000000000005
 20
55.99999999999019
 30
0.0
 40
0.5
 50
180.0
 51
270.0
  0
LINE
  8
ITEM_50
 10
53.50000000000005
 20
55.49999999999019
 30
0.0
 11
55.00000000000008
 21
55.49999999999019
 31
0.0
  0
ARC
  8
ITEM_50
 10
55.00000000000008
 20
56.49999999999019
 30
0.0
 40
1.0
 50
270.0
 51
0.0
  0
LINE
  8
ITEM_50
 10
56.00000000000008
 20
56.49999999999019
 30
0.0
 11
56.00000000000008
 21
58.49999999999019
 31
0.0
  0
ARC
  8
ITEM_50
 10
54.50000000000008
 20
58.49999999999019
 30
0.0
 40
1.5
 50
0.0
 51
90.0
  0
LINE
  8
ITEM_50
 10
54.50000000000008
 20
59.99999999999019
 30
0.0
 11
40.00000000000005
 21
59.99999999999019
 31
0.0
  0
LINE
  8
ITEM_50
 10
40.00000000000005
 20
59.99999999999019
 30
0.0
 11
25.50000000000002
 21
59.99999999999019
 31
0.0
  0
ARC
  8
ITEM_50
 10
25.50000000000002
 20
58.49999999999019
 30
0.0
 40
1.5
 50
90.0
 51
180.0
  0
LINE
  8
ITEM_50
 10
24.00000000000002
 20
58.49999999999019
 30
0.0
 11
24.00000000000002
 21
56.49999999999019
 31
0.0
  0
ARC
  8
ITEM_50
 10
25.00000000000002
 20
56.49999999999019
 30
0.0
 40
1.0
 50
180.0
 51
270.0
  0
ARC
  8
ITEM_50
 10
72.30000000000012
 20
22.30000000000901
 30
0.0
 40
0.5
 50
179.9999999999996
 51
269.999999999912
  0
LINE
  8
ITEM_50
 10
72.29999999999935
 20
21.80000000000902
 30
0.0
 11
75.99999999999673
 21
21.80000000000342
 31
0.0
  0
ARC
  8
ITEM_50
 10
76.00000000000008
 20
24.00000000000341
 30
0.0
 40
2.199999999999992
 50
269.9999999999126
 51
359.9999999999998
  0
LINE
  8
ITEM_50
 10
78.20000000000007
 20
24.00000000000341
 30
0.0
 11
78.2000000000001
 21
27.70000000000979
 31
0.0
  0
ARC
  8
ITEM_50
 10
77.7000000000001
 20
27.70000000000979
 30
0.0
 40
0.5
 50
0.0
 51
90.0
  0
LINE
  8
ITEM_50
 10
77.7000000000001
 20
28.20000000000979
 30
0.0
 11
72.30000000000015
 21
28.20000000000979
 31
0.0
  0
ARC
  8
ITEM_50
 10
72.30000000000015
 20
27.70000000000979
 30
0.0
 40
0.5
 50
90.0
 51
180.0
  0
LINE
  8
ITEM_50
 10
71.80000000000015
 20
27.70000000000979
 30
0.0
 11
71.80000000000012
 21
22.30000000000902
 31
0.0
  0
LINE
  8
ITEM_50
 10
48.2000000000001
 20
28.25025253169411
 30
0.0
 11
48.20000000000007
 21
24.50000000000983
 31
0.0
  0
ARC
  8
ITEM_50
 10
45.70000000000008
 20
24.50000000000983
 30
0.0
 40
2.499999999999992
 50
269.9999999999998
 51
0.0000000000000814
  0
LINE
  8
ITEM_50
 10
45.70000000000007
 20
22.00000000000983
 30
0.0
 11
40.00000000000318
 21
22.0000000000098
 31
0.0
  0
LINE
  8
ITEM_50
 10
40.00000000000318
 20
22.0000000000098
 30
0.0
 11
34.30000000000003
 21
22.00000000000983
 31
0.0
  0
ARC
  8
ITEM_50
 10
34.30000000000003
 20
24.50000000000982
 30
0.0
 40
2.499999999999992
 50
179.9999999999998
 51
270.0000000000001
  0
LINE
  8
ITEM_50
 10
31.80000000000003
 20
24.50000000000983
 30
0.0
 11
31.80000000000001
 21
28.25025253169411
 31
0.0
  0
ARC
  8
ITEM_50
 10
26.80000000000001
 20
28.25025253169411
 30
0.0
 40
5.0
 50
0.0
 51
45.0
  0
LINE
  8
ITEM_50
 10
30.33553390593274
 20
31.78578643762685
 30
0.0
 11
29.21446609406726
 21
32.90685424949234
 31
0.0
  0
ARC
  8
ITEM_50
 10
32.75
 20
36.44238815542504
 30
0.0
 40
4.99999999999998
 50
179.9999999999999
 51
224.9999999999996
  0
LINE
  8
ITEM_50
 10
27.75000000000002
 20
36.44238815542504
 30
0.0
 11
27.75000000000002
 21
39.99999999999019
 31
0.0
  0
LINE
  8
ITEM_50
 10
27.75000000000002
 20
39.99999999999019
 30
0.0
 11
27.75000000000002
 21
43.55761184457495
 31
0.0
  0
ARC
  8
ITEM_50
 10
32.75000000000001
 20
43.55761184457495
 30
0.0
 40
4.999999999999985
 50
135.0000000000003
 51
180.0
  0
LINE
  8
ITEM_50
 10
29.21446609406726
 20
47.09314575050765
 30
0.0
 11
30.33553390593274
 21
48.21421356237314
 31
0.0
  0
ARC
  8
ITEM_50
 10
26.80000000000001
 20
51.74974746830588
 30
0.0
 40
5.0
 50
315.0
 51
0.0
  0
LINE
  8
ITEM_50
 10
31.80000000000001
 20
51.74974746830588
 30
0.0
 11
31.80000000000003
 21
55.49999999999016
 31
0.0
  0
ARC
  8
ITEM_50
 10
34.30000000000003
 20
55.49999999999017
 30
0.0
 40
2.499999999999992
 50
89.99999999999982
 51
180.0000000000001
  0
LINE
  8
ITEM_50
 10
34.30000000000003
 20
57.99999999999016
 30
0.0
 11
40.00000000000318
 21
57.99999999999019
 31
0.0
  0
LINE
  8
ITEM_50
 10
40.00000000000318
 20
57.99999999999019
 30
0.0
 11
45.70000000000007
 21
57.99999999999016
 31
0.0
  0
ARC
  8
ITEM_50
 10
45.70000000000008
 20
55.49999999999017
 30
0.0
 40
2.499999999999992
 50
359.9999999999998
 51
90.00000000000017
  0
LINE
  8
ITEM_50
 10
48.20000000000007
 20
55.49999999999016
 30
0.0
 11
48.2000000000001
 21
51.74974746830588
 31
0.0
  0
ARC
  8
ITEM_50
 10
53.2000000000001
 20
51.74974746830588
 30
0.0
 40
5.0
 50
180.0
 51
225.0
  0
LINE
  8
ITEM_50
 10
49.66446609406736
 20
48.21421356237314
 30
0.0
 11
50.78553390593285
 21
47.09314575050765
 31
0.0
  0
ARC
  8
ITEM_50
 10
47.25000000000009
 20
43.55761184457495
 30
0.0
 40
4.999999999999984
 50
359.9999999999998
 51
44.99999999999959
  0
LINE
  8
ITEM_50
 10
52.25000000000008
 20
43.55761184457495
 30
0.0
 11
52.25000000000008
 21
39.99999999999019
 31
0.0
  0
LINE
  8
ITEM_50
 10
52.25000000000008
 20
39.99999999999019
 30
0.0
 11
52.25000000000008
 21
36.44238815542504
 31
0.0
  0
ARC
  8
ITEM_50
 10
47.25000000000009
 20
36.44238815542504
 30
0.0
 40
4.999999999999985
 50
315.0000000000003
 51
0.0000000000000814
  0
LINE
  8
ITEM_50
 10
50.78553390593285
 20
32.90685424949234
 30
0.0
 11
49.66446609406736
 21
31.78578643762685
 31
0.0
  0
ARC
  8
ITEM_50
 10
53.2000000000001
 20
28.25025253169411
 30
0.0
 40
5.0
 50
135.0
 51
180.0
  0
ARC
  8
ITEM_50
 10
2.300000000000009
 20
27.70000000000979
 30
0.0
 40
0.4999999999999982
 50
89.9999999999998
 51
180.0
  0
LINE
  8
ITEM_50
 10
2.300000000000011
 20
28.20000000000979
 30
0.0
 11
7.69999999999996
 21
28.20000000000979
 31
0.0
  0
ARC
  8
ITEM_50
 10
7.699999999999959
 20
27.70000000000979
 30
0.0
 40
0.5
 50
0.0
 51
89.9999999999999
  0
LINE
  8
ITEM_50
 10
8.19999999999996
 20
27.70000000000979
 30
0.0
 11
8.199999999999988
 21
22.30000000000902
 31
0.0
  0
ARC
  8
ITEM_50
 10
7.699999999999993
 20
22.30000000000901
 30
0.0
 40
0.4999999999999956
 50
270.0000000000874
 51
0.0000000000004071
  0
LINE
  8
ITEM_50
 10
7.700000000000756
 20
21.80000000000902
 30
0.0
 11
4.000000000003382
 21
21.80000000000342
 31
0.0
  0
ARC
  8
ITEM_50
 10
4.00000000000003
 20
24.00000000000341
 30
0.0
 40
2.199999999999988
 50
180.0
 51
270.0000000000873
  0
LINE
  8
ITEM_50
 10
1.800000000000039
 20
24.00000000000341
 30
0.0
 11
1.800000000000011
 21
27.70000000000979
 31
0.0
  0
ARC
  8
ITEM_50
 10
2.300000000000009
 20
52.2999999999902
 30
0.0
 40
0.4999999999999982
 50
180.0
 51
270.0000000000002
  0
LINE
  8
ITEM_50
 10
2.300000000000011
 20
51.7999999999902
 30
0.0
 11
7.69999999999996
 21
51.7999999999902
 31
0.0
  0
ARC
  8
ITEM_50
 10
7.699999999999958
 20
52.2999999999902
 30
0.0
 40
0.5
 50
270.0000000000002
 51
0.0
  0
LINE
  8
ITEM_50
 10
8.19999999999996
 20
52.2999999999902
 30
0.0
 11
8.199999999999988
 21
57.69999999999097
 31
0.0
  0
ARC
  8
ITEM_50
 10
7.699999999999993
 20
57.69999999999098
 30
0.0
 40
0.4999999999999956
 50
359.9999999999992
 51
89.99999999991257
  0
LINE
  8
ITEM_50
 10
7.700000000000756
 20
58.19999999999097
 30
0.0
 11
4.000000000003382
 21
58.19999999999657
 31
0.0
  0
ARC
  8
ITEM_50
 10
4.00000000000003
 20
55.99999999999658
 30
0.0
 40
2.199999999999988
 50
89.9999999999127
 51
180.0
  0
LINE
  8
ITEM_50
 10
1.800000000000039
 20
55.99999999999658
 30
0.0
 11
1.800000000000011
 21
52.2999999999902
 31
0.0
  0
LINE
  8
ITEM_50
 10
91.0
 20
60.0
 30
0.0
 11
91.0
 21
20.0
 31
0.0
  0
LINE
  8
ITEM_50
 10
80.0
 20
9.0
 30
0.0
 11
0.0
 21
9.0
 31
0.0
  0
ENDSEC
  0
EOF
